Take it easy

Eagles - J.Browne & G.Frey

Intro  G///G///C///Am7///G///G///                                   [oo]
Theme  G///G///G/D/C///G///D///C///G///
       Em///Em///C///G///Am///C///Em///Em///
       C///G///C///G///Am///C///G///G///
Fin    C///C///G///G///C///C///G///G9///
       C///C///G///G9///C///C///Em///
Well I'm a runnin' down the road      Chor.  Take it easy Take it easy
Tryin' to loosen my load                     Don't let the sound of your own wheels
I'e got seven women on my mind               Drive you crazy
Four that wanna own me                       Lighten up while you still can
Two that wanna stone me                      Don't even try to understand
One says she's a friend of mine              Just find a place to make your stand
                                             And take it easy

Well I'm a standing on a corner       Chor.  Come on baby Don't say maybe
In Winslow Arizona                           I gotta know if your sweet love
It's such a fine sight to see                Is gonna save me
It's a girl My Lord                          We may lose and we may win
In a flat bed Ford                           But we will never be here again
Slowin' down to take a look at me            So open up I'm climbin' in
                                             So take it easy

Well I'm a runnin' down the road      Chor.  Take it easy Take it easy
Tryin' to loosen my load                     Don't let the sound of your own wheels
Got a world of trouble on my mind            Drive you crazy
Lookin' for a lover                          Come on baby Don't say maybe
Who wont blow my cover                       I gotta know if your sweet love
She's so hard to find                        Is gonna save me
                                             Oh we got it easy
                                             We oughta take it easy


             G                                               D     C
E|---------|-----------------|---------------0-|-----------------|-----------------|
B|---------|-0-3-3-3-3---3-0-|-5-3-3-----------|-----------------|---------------3-|
G|---0-0-0-|-----------------|-------3s2-0-0---|-3-3-2-0-2---2s0-|-0---------------|
D|---------|-----------------|-----------------|-----------------|-----------------|
A|---------|-----------------|-----------------|-----------------|-----------------|
E|---------|-----------------|-----------------|-----------------|-----------------|
   |_| |_|   |_| |_| |   |_|   |_| |_| |_| |_|   |_| |_| |   |_|   |   |   |   |_|

  G                 D                 C                 G
|-----------------|-----------------|-----------------|-----------------|
|-5-3-3-0-3-3s5---|-----------------|-----------------|---------0-0s3-3-|
|---------------2-s-4-2-2-0-2-2s4-4-s-2-0-0---3s2-0-0-|-----------------|
|-----------------|-----------------|-------2---------|-----------------|
|-----------------|-----------------|-----------------|-----------------|
|-----------------|-----------------|-----------------|-----------------|
  |_| |_| |_| |_|   |_| |_| |_| |_|   |_| |_| |_| |_|   |   |   |_| |_|

  Em                                  C                 G
|-----------------|-----------------|-----------------|-----------------|
|---------------0-|-0-------0-------|-----------------|-----------0-----|
|-----------------|-----------2s0-0-|-----------------|-------------2-0-|
|-----------------|-----------------|-----------0-2-0-|-0---------------|
|-----------------|-----------------|-----------------|-----------------|
|-----------------|-----------------|-----------------|-----------------|
  |   |   |   |_|   |   |   |_| |_|   |   |   |_| |_|   |   |   |_| |_|

  Am                C                 Em
|-----------------|-----------------|-----------------|-----------0---3-|
|-----------------|-----------------|-----------------|-------------3---|
|-2---0-2---2s4---|-2s0---------0-0-|-2---------------|-----------------|
|-----------------|---------2-------|---2---2---------|-----------------|
|-----------------|-----------------|-----------------|-----------------|
|-----------------|-----------------|-----------------|-----------------|
  |   |_| |_| |     |_| |   |   |_|   |_| |_| |   |     |   |   |_| |_|

C G C G |---------0-------|-----------------|-----------------|-----------------| |-------3---3-----|-----------0-----|---------0-3---3-|-----------0-----| |-------------3-2-s-0-----------2-0-|-2s0---0---------|-------------2-0-| |-----------------|-----------------|-----------------|-----------------| |-----------------|-----------------|-----------------|-----------------| |-----------------|-----------------|-----------------|-----------------| | |_| |_| |_| | | |_| |_| |_| |_| |_| |_| | | |_| |_| Am C G |-----------------|-----------------|-----------------|-----------------| |-----------------|---------0-3-3---|-----------------|-----------------| |-2---0-2---2s4-2-s-0-----0---------|-----------------|-2-0-------------| |-----------------|-----------------|-----------------|-----------------| |-----------------|-----------------|-----------------|-----------------| |-----------------|-----------------|-----------------|-----------------| | |_| |_| |_| | |_| |_| | | | | | |_| | | | Fin C G G9 |-----------------|-----------------|-0---------------|-0---------------| |-----------------|-----------3-3-0-|-----3---------0-|-----3---------0-| |-----------------|-------3s4-------|-----------------|-----------------| |-----------------|-----------------|-----------------|-----------------| |-----------------|-----------------|-----------------|-----------------| |-----------------|-----------------|-----------------|-----------------| | | | | | |_| |_| |_| | | | |_| | | | |_| C G G9 |-----------------|-----------------|-0---------------|-0---------------| |-1---------------|---------0-3-3-0-|-----3---------0-|-----3---------0-| |-----2-0---------|-------0---------|-----------------|-----------------| |-----------------|-----------------|-----------------|-----------------| |-----------------|-----------------|-----------------|-----------------| |-----------------|-----------------|-----------------|-----------------| | |_| | | | |_| |_| |_| | | | |_| | | | |_| C Em |-----------------|-----------------|-0---------------|----------------| |-1---------------|-----------------|-0---------------|----------------| |-----2-0---------|-----------------|-0---------------|----------------| |-----------------|-----------------|-2---------------|----------------| |-----------------|-----------------|-2---------------|----------------| |-----------------|-----------------|-0---------------|----------------| | |_| | | | | | | | | | | | | | |