Hey good lookin'

Hank Williams

G///G///G///G///A7///D7///G/Em/A7/D7/
G///G///G///G///A7///D7///G///G7///
C///G///C///G///C///G///A7///D7///
G///G///G///G///A7///D7///G/Em/A7/D7/

G ----  A7 ---  D7 ---  Em ---  G7 ---  C ----
320003  002223  x00212  022000  320001  032010
  intro/guitare/violon/guitare/chorus fin
[oo]
[G]Hey good lookin' what cha got a cookin'
[A7]How's about cookin' [D7]somethin' up with [G]me [Em][A7][D7]
[G]Hey sweet baby don't you think maybe
[A7]We could find us a [D7]brand new reci[G]pe [G7]
I got a [C]hot rod ford and a [G]two dollar bill
And [C]I know a spot right [G]over the hill
[C]There's soda pop and the [G]dancin's free
So if you (A7]wanna have fun come a[D7]long with me
[G]Hey good lookin' what cha got a cookin'
[A7]How's about cookin' [D7]somethin' up with [G]me [Em][A7][D7]

I'm free and ready so we can go steady
How's about saving all your time for me
No more lookin' I know I've been tooken
How's about keepin' steady company
I'm gonna throw my datebook over the fence
And find me one for five or ten cents
I'll keep it 'til it's covered with age
'Cause I'm writing your name down on ev'ry page
Hey good lookin'  What cha got a cookin'
How's about cookin' somethin' up with me
- intro -
                      A7                D7                G
E||-----------------|-----3-----------|-----2-----------|-----3-----------|
B||-----------------|-----2-----------|-----3-----------|-----0-----------|
G||-----------------|-----2-------0---|-----2---0---2---|-0---------------|
D||---0-----0---1---|-2-------2-------|-4---------------|---------4---2---|
A||-----4-----------|-----------------|-----------------|-----------------|
E||-----------------|-----------------|-----------------|-----------------|
    |_| |   |   |     |   |   |   |     |   |   |   |     |   |   |   |

  D7
|-----2-----------|-----
|-----3-----------|-----
|-----2-----------|-----
|-0---------------|-----
|-----------------|-----
|---------0---2---|-3---
  |   |   |   |     |
[oo]
- passage de G  A7 -
    G                                   A7
E||-----3-------3---|-----------------|-----3-------3---|
B||-----0-------0---|-----------------|-----2-------2---|
G||-----0-------0---|-----------------|-----2-------2---|
D||-----------------|-----------------|-----------------|
A||---------2-------|-----------------|-0---------------|
E||-3---------------|-3---2---3---4---|---------0-------|
    |   |   |   |     |   |   |   |     |   |   |   |
[oo]