Oh Lonesome Me

Don Gibson

GUITARE FIDDLE BANJO BASSE [oo]
Part.A  C///C///G7///G7///G7///G7///C///C///
        C///C7///F///F///G7///G7///C///C///

Part.B  G///G///D7///D7///D7///D7///G///G///
        G///G///D7///D7///D7///D7///G///G7///
Ev'rybody's goin' out and havin' fun
I'm just a fool for stayin' home and havin' none
I can't get over how she set me free
Oh lonesome me

A bad mistake I'm makin' by just hangin' round
I know that I should have some fun and paint the town
A lovesick fool that's blind and just can see
Oh lonesome me

         I'll bet she's not like me, she's out and fancy free
         Flirting with the boys with all her charms
         But I still love her so, and brother don't you know
         I'd welcome her right back here in my arms

Well there must be some way I can lose this lonesome blues
Forget about the past and find somebody new
I've thought of ev'rything from A to Z
Oh lonesome me

Oh lonesome me - GUITARE [retour]
Intro

  G7                                  C
|-----------------|-----------------|-----------------|
|-----------------|-----------------|-----------------|
|-0---------------|---------0---0---|-0---------------|
|-----------------|-----------------|-----2-----------|
|-----------------|-----------------|-----------------|
|-----------------|-----------------|-----------------|
  |   |   |   |     |   |   |   |     |   |   |   |

Theme

Part.A
  C                                   G7
|-----------------|-----------------|-----------------|-----------------|
|-----------------|-----------------|-----------------|-----------------|
|-----0---0---0---|-----0---0---0---|-----0---0-------|-------------0---|
|-2---------------|-2---------------|-3---------------|-----------------|
|-----------------|-----------------|-----------------|-----------------|
|-----------------|-----------------|-----------------|-----------------|
  |   |   |   |     |   |   |   |     |   |   |   |     |   |   |   |

  G7                                  C
|-----------------|-----------------|-----------------|-----------------|
|-----------------|-----------------|-----------------|-----------------|
|-----0---0---0---|-----0---0---0---|-----0---2-s-0---|-------------0---|
|-3---------------|-3---------------|-2---------------|-----------------|
|-----------------|-----------------|-----------------|-----------------|
|-----------------|-----------------|-----------------|-----------------|
  |   |   |   |     |   |   |   |     |   |   |   |     |   |   |   |

  C                 C7                F
|-----------------|-----------------|-----------------|-----------------|
|-----------------|---------1---1---|-----------------|-----------------|
|-----0---0---0---|-----0-----------|-2---------------|-----------------|
|-2---------------|-2---------------|-----------------|-----------------|
|-----------------|-----------------|-----------------|-----------------|
|-----------------|-----------------|-----------------|-----------------|
  |   |   |   |     |   |   |   |     |   |   |   |     |   |   |   |

  G7                                  C
|-----------------|-----------------|-----------------|-----------------|
|-----------------|-----------------|-----------------|-----------------|
|-0---------------|---------0---0---|-----------------|-----------------|
|-----------------|-----------------|-5---2-----------|------------(2)--|
|-----------------|-----------------|-----------------|-----------------|
|-----------------|-----------------|-----------------|-----------------|
  |   |   |   |     |   |   |   |     |   |   |   |     |   |   |   |

Part.B
  G                                   D7
|-----------------|-----------------|-----------------|-----------------|
|-----------------|-----------------|-----------------|-----------------|
|-----------------|-----------------|-----------------|-----------------|
|-0---0---0---0---|-0-----------0---|-0---0---0---0---|-0---------------|
|-----------------|-----------------|-----------------|-----------------|
|-----------------|-----------------|-----------------|-----------------|

                                      G
|-----------------|-----------------|-----------------|-----------------|
|-----------------|-----------------|-----------------|-----------------|
|-----------------|-------------0---|-----------------|-----------------|
|-0---0---0---0---|-0---0---2-------|-2---0-----------|-------------0---|
|-----------------|-----------------|-----------------|-----------------|
|-----------------|-----------------|-----------------|-----------------|
  |   |   |   |     |   |   |   |     |   |   |   |     |   |   |   |

                                      D7
|-----------------|-----------------|-----------------|-----------------|
|-----------------|-----------------|-----------------|-----------------|
|-----------------|-----------------|-----------------|-----------------|
|-0---0---0---0---|-0-----------0---|-0---0---0---0---|-0-----------0---|
|-----------------|-----------------|-----------------|-----------------|
|-----------------|-----------------|-----------------|-----------------|
  |   |   |   |     |   |   |   |     |   |   |   |     |   |   |   |

                                      G                 G7
|-----------------|-----------------|-----------------|-----------------|
|-----------------|-----------------|-----------------|-----------------|
|-----------------|-------------0---|-----------------|-----0-------0---|
|-0---0---0---0---|-0---0---2-------|-2---0-----------|-2---------------|
|-----------------|-----------------|-----------------|-----------------|
|-----------------|-----------------|-----------------|-----------------|
  |   |   |   |     |   |   |   |     |   |   |   |     |   |   |   |

Chorus

        C                                   G7
|-3---|-0---3---3-3-3-3-|-0---3---3-3-3-3-|-1-3---3---------|-----------2s3-3-|
|-----|-----------------|-----------------|-----------------|-----------------|
|-----|-----------------|-----------------|-----------------|-----------------|
|-----|-----------------|-----------------|-----------------|-----------------|
|-----|-----------------|-----------------|-----------------|-----------------|
|-----|-----------------|-----------------|-----------------|-----------------|
  |     |   |   |_| |_|   |   |   |_| |_|   |_| |_| |   |     |   |   |_| |_|

                                      C
|-1---3---3-3-3-3-|-1---3---3-3-3-3-|---0-3---5s3-----|-----------3---3-|
|-----------------|-----------------|-4---------------|-----------------|
|-----------------|-----------------|-----------------|-----------------|
|-----------------|-----------------|-----------------|-----------------|
|-----------------|-----------------|-----------------|-----------------|
|-----------------|-----------------|-----------------|-----------------|
  |   |   |_| |_|   |   |   |_| |_|   |_| |   |_| |     |   |   |_| |_|

                    C7                F
|-0---3---3-3-3-3-|-0---3---8---8---|-5---3---2s1-----|-----------------|
|-----------------|-----------------|-------------3---|-3s1-------------|
|-----------------|-----------------|-----------------|-5---2---0-------|
|-----------------|-----------------|-----------------|-------------3---|
|-----------------|-----------------|-----------------|-----------------|
|-----------------|-----------------|-----------------|-----------------|
  |   |   |_| |_|   |   |   |   |     |   |   |_| |     |_| |   |   |

  G7                                  C
|-----3-----------|---3-----0-------|-----------8---0-|-8-5-0-----------|
|-1---------------|---0---------3---|-1---------------|-----8-----2-----|
|-----------------|---0-------------|-----------------|-----------3-----|
|-----------------|-----------------|-----------------|-----------4-----|
|-----------------|-----------------|-----------------|-----------------|
|-----------------|-----------------|-----------------|-----------------|
  |   |   |   |     |_| |   |   |     |   |   |_| |_|   |_| |   |_| |

  G                                   D7
|-----------------|-----------------|-----------------|-----------------|
|-3---3---3---0---|-----------3-----|-3---3---3-----3-|-----------2-----|
|-4---4---4-4-0-4-|-----------------|-4---3---4-4---4-|-----------3-----|
|-5---5---5---4s5-|-----------5-----|-----------------|-----------1-----|
|-----------------|-----------------|-----------------|-----------------|
|-----------------|-----------------|-----------------|-----------------|
  |   |   |_| |_|   |   |   |_| |     |   |   |_| |_|   |   |   |_| |

                                      G
|-----------------|-----------------|-----------------|-----------------|
|-3---3-----------|-3-----5---7-----|-3---5---3-----3-|-----------2-----|
|-4---4-----------|-4-----4---7-----|-4---4---4---4-4-|-----------3-----|
|-2---2---------2-|-----------------|-5---5---5---5---|-----------4-----|
|-----------------|-----------------|-----------------|-----------------|
|-----------------|-----------------|-----------------|-----------------|
  |   |   |   |_|   |   |_| |_| |     |   |   |   |_|   |   |   |_| |

                                      D7
|-----------------|-----------------|-----------------|-----------4-----|
|-3---3---3-----3-|-----------3-----|-3-2s3---3-----3-|-----------3-----|
|-4---4---4-4---4-|-----------4-----|-2---2---2-2---2-|-----------2-----|
|-5---5---5---5-5-|-----------5---4-|-----4---4-4---4-|-----------4---4-|
|-----------------|-----------------|-----------------|-----------------|
|-----------------|-----------------|-----------------|-----------------|
  |   |   |_| |_|   |   |   |_| |_|   |_| |   |_| |_|   |   |   |_| |_|

                                      G                 G7
|-----------------|---------2---5---|-3-------3-1-3-1-|-0-------------3-|
|-3---3---3-----3-|-----3---2-------|-----------------|-----3---1s0-----|
|-2---2---2-2-----|-----------------|-----------------|-----------------|
|-----4---4-4-4---|---4-----4-------|-----------------|-----------------|
|-----------------|-----------------|-----------------|-----------------|
|-----------------|-----------------|-----------------|-----------------|
  |   |   |_| |_|   |_| |   |   |     |   |   |_| |_|   |   |   |_| |_|

  C                                   G7
|---0-3---3---3-3-|-0-3---3---3---3-|-1---3---3-0-----|-----------2-3-3-|
|-----------------|-----------------|-------------4---|-----------------|
|-----------------|-----------------|-----------------|-----------------|
|-----------------|-----------------|-----------------|-----------------|
|-----------------|-----------------|-----------------|-----------------|
|-----------------|-----------------|-----------------|-----------------|
  |_| |   |   |_|   |_| |_| |_| |_|   |   |   |_| |     |   |   |_| |_|

                                      C
|-1---3---3-3-3-3-|-1---3---3-3-3-3-|---0-3---5s3-----|-----------3---3-|
|-----------------|-----------------|-4---------------|-----------------|
|-----------------|-----------------|-----------------|-----------------|
|-----------------|-----------------|-----------------|-----------------|
|-----------------|-----------------|-----------------|-----------------|
|-----------------|-----------------|-----------------|-----------------|
  |   |   |_| |_|   |   |   |_| |_|   |_| |   |_| |     |   |   |_| |_|

                    C7                F
|-0---3---3-3-3-3-|-0---3---8s9-8---|-8s7---5---0-----|-----------------|
|-----------------|-----------------|-----8---7---3---|-3s2-------------|
|-----------------|-----------------|-----------------|-5---2---2-------|
|-----------------|-----------------|-----------------|---------5-------|
|-----------------|-----------------|-----------------|-----------------|
|-----------------|-----------------|-----------------|-----------------|
  |   |   |_| |_|   |   |   |_| |     |_| |_| |_| |     |_| |   |   |

  G7                                  C
|-3---------------|-----------------|-----------------|-8---------------|-3----
|-----------------|-------3s4---3-3-|-----------3s5---|---9s6-----7-8-8-|------
|-2---------------|-----------------|-5---------6-----|-----------------|------
|-----------------|-----------------|-----------------|-----------------|------
|-----------------|-----------------|-----------------|-----------------|------
|-----------------|-----------------|-----------------|-----------------|------
  |   |   |   |     |   |_| |   |_|   |   |   |_| |     |_| |   |_| |_|   |

Licks

  G7
|-----------------|-----------------|   jouer aussi sur un accord
|-----------------|-----------------|       de C
|-----------------|-----------------|
|-----------------|-----------------|
|s3-------------0-|-----------------|
|-----0---3-0-3---|---3-----0-3-0---|
  |   |   |_| |_|   |_| |   |_| |

  F                                   G7
|-----------------|-----------------|-----------------|-----------------|
|-----------------|-----------------|-----------------|-----------------|
|-----------------|-----------------|-----------------|-----------------|
|-----------0---3-|-----------------|---------------0-|---------2s0-----|
|-------0-3-------|-------0-3-0-3---|-2---2---2-------|-----2-------2---|
|s1---2-----------|-----3-----------|---3---3-----3---|-----------------|
  |   |_| |_| |_|   |   |_| |_| |     |_| |_| |   |_|   |   |   |_| |

  C
|-----------------|-----
|-----------0-----|-1---
|-----------------|-----
|-----------------|-----
|-3---------------|-----
|-----------------|-----
  |   |   |_| |     |

  G                                       G                 G7
|-----------------|-----------------|   |-----------------|-----------------|
|-----0-----------|-----------------|   |-0---------------|-----------------|
|-----------0-----|-0---------------|   |---------0-------|-----------------|
|-------------2-0-|---2---0-----2---|   |-----------------|-2---2---0-------|
|-----------------|-----------------|   |-----------------|-----------------|
|-----------------|-----------------|   |-----------------|-----------------|
  |   |   |_| |_|   |_| |_| |   |         |   |   |   |     |   |   |   |

Fin

Guitare 1
  G7                          C
|---------|-----------------|-----------------|---------0-------|
|---------|-----------------|---1-------------|---------1-------|
|---------|-----------------|-----2-0---------|---------0-------|
|---------|-----------------|---------2-0-----|---------2-------|
|---------|-----------------|-------------3-4-|-3-----3-3-------|
|---1-2---|-1-2-----1---0---|---------------5-|-----------------|
  |_| |     |_| |   |   |     |_| |_| |_| |_|   |   |_| |   |

Guitare 2

|-------0---------|-----------------|-------8---------|
|---------4---3---|-----------1-----|-1-----7S8-------|
|---0-------------|-5---------------|-----------------|
|---2-----4s3-----|-2---------3-s-2-|-------7---------|
|-----------------|-----------------|-----------------|
|-----------------|-----------------|-----------------|
  |_| |_| |_| |     |   |   |_| |_|   |   |_| |   |

Oh lonesome me - FIDDLE [retour]
Intro

E|-----0---0---8---|-----------8---------|
A|---3---3---------|-10s8-7-10---10-7----|
D|-5---------------|------------------10-|
G|-----------------|---------------------|
   |_| |_| |   |     |__| |_|  |_|  |_|

Licks
  C                                       G7
|-----3-----5-----|-6-----5-----3---|   |-----3-----5-----|-6-----5-----3---|
|-3-3-3-3-3-3-3-3-|-3-3-3-3-3-3-3-3-|   |-2-2-2-2-2-2-2-2-|-2-2-2-2-2-2-2-2-|
|-2-2---2-2---2-2-|---2-2---2-2---2-|   |-0-0---0-0---0-0-|---0-0---0-0---0-|
|-----------------|-----------------|   |-----------------|-----------------|
  |_| |_| |_| |_|   |_| |_| |_| |_|       |_| |_| |_| |_|   |_| |_| |_| |_|

  F                                       D7
|-----------------|-----------------|   |-----------------|-----------------|
|-----3-----5-----|-6-----5-----3---|   |-----0-----2-----|-3-----2-----0---|
|-3-3-3-3-3-3-3-3-|-3-3-3-3-3-3-3-3-|   |-4-4-4-4-4-4-4-4-|-4-4-4-4-4-4-4-4-|
|-2-2---2-2---2-2-|---2-2---2-2---2-|   |-7-7---7-7---7-7-|---7-7---7-7---7-|
  |_| |_| |_| |_|   |_| |_| |_| |_|       |_| |_| |_| |_|   |_| |_| |_| |_|

  C
|-8--------------------|-------------------|
|---10-13-12-10-9s10-9-|-8----6s7----------|
|----------------------|---10-----10-9-10--|
|----------------------|-------------------|
  |_|  |__|  |__| |__|   |_|  |_| |__| |

  G7
|-3-2s1-0---------|-----------------|
|---------5s4-3s2-|-0---0s1-0-------|
|-----------------|---5-------5-2-0-|
|-----------------|-----------------|
  |_| |_| |_| |_|   |_| |_| |_| |_|

Oh lonesome me - BANJO [retour]
Theme

   C                                   G7
D|-1-2-------------|-----5-----------|-----5-----3---3-|-----3-----3---3-|
B|---------1-------|-----5-----5---5-|-----------3---3-|-----3-----3---3-|
G|-------------0---|-----5-------5---|-------------4---|-----4-------4---|
D|-----------------|-5---------------|-5---5-----------|-3---------------|
G|-----0-----------|---------7-7---7-|-----0-----------|-----------------|
   |_| |   |   |     |   |   |_| |_|   |   |   |_| |_|   |   |   |_| |_|

  G7                                  C
|-----3-------3---|-----3-----3---3-|-------------2---|-----5---7-7---7-|
|-----3---------3-|-----3-----3---3-|-1---1---------1-|-1---5-----5---5-|
|---------4s3-----|-----4-------4---|-----5-----------|-----5-------5---|
|-3---------------|-3---------------|-3---------------|-----------------|
|-----------------|-----------------|-------------0---|-----------------|
  |   |   |_| |_|   |   |   |_| |_|   |   |   |   |_|   |   |   |_| |_|

  C                 C7                F
|-----5---------5-|-----5---7-7---7-|-----3-------7---|-----7-----7---7-|
|-----5---------5-|-----5-----5---5-|-----6---------6-|-1---6-----6---6-|
|-----5-------5---|-5---5-------5---|---------5-------|-----5---7---7---|
|-5---------------|-5---------------|-3---------------|-3---------------|
|-----------------|-----------------|-----------------|-----------------|
  |   |   |   |_|   |   |   |_| |_|   |   |   |   |_|   |   |   |_| |_|

  G7                                  C
|-----3---3-------|-----3-----3---3-|-----------5---5-|-----5---7-7---7-|
|-----3---3-------|-----3-----3---3-|-1---1-----5---5-|-1---5-----5---5-|
|-2-----------4---|-----4-------4---|-----5-------5---|-0---5-------5---|
|-5---5-----------|-3---------------|-5---------------|-----------------|
|-----------------|-----------------|-----------------|-----------------|
  |   |   |   |     |   |   |_| |_|   |   |   |_| |_|   |   |   |_| |_|

Chorus

  G                                   D7
|-----5-----5---5-|-----5-----5---5-|-----0-------7-4-|-----7-----7---7-|
|-----3-----3---3-|-3---3---5-5---5-|-3---3-----------|-----7-----7---7-|
|-----4-------4---|-----4-------4---|---------5-------|-2---5-------5---|
|-5---------------|-5---------------|-5---------------|-----------------|
|-----------------|-----------------|-----------------|-----------------|
  |   |   |_| |_|   |   |   |_| |_|   |   |   |   |_|   |   |   |_| |_|

  D7                                  G
|-----7-----7-----|-----7-----7---7-|-----5-----5---5-|-----5-----5---5-|
|-----7-----7-----|-----7-----7---7-|-----8-----3---3-|-3---3---5-5---5-|
|-2---5-------5---|-2---5-------5---|-2-----------4---|-----4-------4---|
|-----------------|-----------------|-5---5-----------|-5---------------|
|-----------------|-----------------|-----------------|-----------------|
  |   |   |_| |     |   |   |_| |_|   |   |   |_| |_|   |   |   |_| |_|

  G                                   D7
|-----5-------5---|-----5-----5---5-|-----7-----7-----|-----7-----7---7-|
|-----3---------3-|-3---3---5-5---5-|-3---7-----7-1---|-----7-----7---7-|
|---------4s3-----|-----4-------4---|-----7-----------|-2---5-------5---|
|-5---------------|-5---------------|-5---------------|-----------------|
|-----------------|-----------------|-----------------|-----------------|
  |   |   |_| |_|   |   |   |_| |_|   |   |   |_| |     |   |   |_| |_|

                                      G                G7
|-----7-----7---7-|-----7-----7---7-|-----5-------3---|-----3-----3---3-|
|-----7-----7---7-|-----7-----7---8-|-----3---------3-|-----3-----3---3-|
|-2---5-------5---|-2---5-------5---|---------4s3-----|-----4-------4---|
|-----------------|-----------------|-5---------------|-3---------------|
|-----------------|-----------------|-----------------|-----------------|
  |   |   |_| |_|   |   |   |_| |_|   |   |   |_| |_|   |   |   |_| |_|

Licks

  G7
|-----0-----0-----|-0-----0---------|---
|---5-----5-----5-|-----0-----0-----|---
|-------------5---|---5-----5-----0-|---
|-----------------|-------------7---|-3-
|-0-----0---------|-----------------|---
  |_| |_| |_| |_|   |_| |_| |_| |_|   |

  C
|-12----9----9--------|-----0-------0---|-----
|---------10---10---7-|---5-----0-------|-----
|---------------------|-------5---------|-----
|---------------------|-----------------|-5---
|----10-----------0---|-0-------------0-|-----
  |__|  |_|  |_|  |_|   |_| |_| |   |_|   |

  F
|-----10----10----10----|-9----9--------0---|
|--------------10----10-|--------10---------|
|---9-------------------|-------------9-----|
|-----------------------|-------------------|
|-0------12-------------|---10------0-----0-|
  |_| |__|  |__|  |__|    |_|  |_|  |_| |_|

Oh lonesome me - BASSE [retour]
Intro

G|-----------------|-----------------|-----------------|-----------------|
D|-0---------------|-0---------------|-----------------|-----------------|
A|-----------------|-----------------|-3---------------|-3-------0---2---|
E|---------3-------|---------3-------|---------3-------|-----3-----------|
   |   |   |   |     |   |   |   |     |   |   |   |     |   |   |   |

Theme

  C                                   G7
|-----------------|-----------------|-----------------|-----------------|
|-----------------|-----------------|-0---------------|-0---------------|
|-3---------------|-3---------------|-----------------|-----------------|
|---------3-------|---------3-------|---------3-------|---------3-------|
  |   |   |   |     |   |   |   |     |   |   |   |     |   |   |   |

  G7                                  C
|-----------------|-----------------|-----------------|-----------------|
|-0---------------|-0---------------|-----------------|-----------------|
|-----------------|-----------------|-3---------------|-3---------------|
|---------3-------|---------3-------|---------3-------|---------3-------|
  |   |   |   |     |   |   |   |     |   |   |   |     |   |   |   |

  C                 C7                F
|-----------------|-----------------|-----------------|-----------------|
|-----------------|-----------------|-3---------------|-----------------|
|-3---------------|-3-------1-------|---------3-------|---------3-------|
|---------3-------|-----------------|-----------------|-1---------------|
  |   |   |   |     |   |   |   |     |   |   |   |     |   |   |   |

  G7                                  C                ..........verse..
|-----------------|-----------------|-----------------|-----------------|
|-0---------------|-0---------------|-----------------|-----------------|
|-----------------|-----------------|-3---------------|-3-------0---2---|
|---------3-------|---------3-------|---------3-------|-----3-----------|
  |   |   |   |     |   |   |   |     |   |   |   |     |   |   |   |

 .........chorus..
|-----------------|
|-----------------|
|-3-------2---0---|
|-----------------|

Chorus

  G                                   D7
|-----------------|-----------------|-----------------|-----------------|
|---------0-------|-----------------|-0---------------|-0---------------|
|-----------------|---------2-------|---------0-------|---------0-------|
|-3---------------|-3---------------|-----------------|-----------------|
  |   |   |   |     |   |   |   |     |   |   |   |     |   |   |   |

  D7                                  G
|-----------------|-----------------|-----------------|-----------------|
|-0---------------|-0---------------|---------0-------|---------0-------|
|---------0-------|-----4---2---0---|-----------------|-----------------|
|-----------------|-----------------|-3---------------|-3---------------|
  |   |   |   |     |   |   |   |     |   |   |   |     |   |   |   |

  G                                   D7
|-----------------|-----------------|-----------------|-----------------|
|---------0-------|-----------------|-0---------------|-0---------------|
|-----------------|---------2-------|---------0-------|---------0-------|
|-3---------------|-3---------------|-----------------|-----------------|
  |   |   |   |     |   |   |   |     |   |   |   |     |   |   |   |

  D7                                  G                 G7
|-----------------|-----------------|-----------------|-----0-----------|
|-0---------------|-0---------------|---------0-------|-----------------|
|---------0-------|-----4---2---0---|-----------------|-----------------|
|-----------------|-----------------|-3---------------|-3-----------3---|
  |   |   |   |     |   |   |   |     |   |   |   |     |   |   |   |

Licks

  C                                       G7
|---------0-------|---------0-------|   |-----------------|-----------------|
|-----2-------2---|-----2-------2---|   |---------3-------|---------3-------|
|-3---------------|-3---------------|   |-----2-------2---|-----2-------2---|
|-----------------|-----------------|   |-3---------------|-3---------------|
  |   |   |   |     |   |   |   |         |   |   |   |     |   |   |   |

  C                 C7                    F
|---------0-------|---------3-------|   |-----2---5---2---|-----2---5---2---|
|-----2-------2---|-----2-------2---|   |-3---------------|-3---------------|
|-3---------------|-3---------------|   |-----------------|-----------------|
|-----------------|-----------------|   |-----------------|-----------------|
  |   |   |   |     |   |   |   |         |   |   |   |     |   |   |   |

  G                                       D7
|-----------------|-----------------|   |---------2-------|---------2-------|
|---------0-------|---------0-------|   |-0---4-------4---|-0---4-------4---|
|-----2-------2---|-----2-------2---|   |-----------------|-----------------|
|-3---------------|-3---------------|   |-----------------|-----------------|
  |   |   |   |     |   |   |   |         |   |   |   |     |   |   |   |

Fin

  G7                                  C
|-----------------|-----------------|-5---2---0-------|-----------------|
|-----------------|-----------------|-------------2---|-----------------|
|-------------2---|-------------2---|-----------------|-3-------3-------|
|-3---0---3-------|-3---0---3-------|-----------------|-----------------|
  |   |   |   |     |   |   |   |     |   |   |   |     |   |   |   |