Blueridge Mountain blues

Traditionnel

GUITARE FIDDLE BANJO BASSE [oo]
G///G///D///D///D///D///G///G///
G///G///D///D///D///D///G///G///
G///G///D///D///D///D///G///G///
G///G///C///C///D///D///G///G///
When I was young and in my prime
I left my home in Caroline
Now all I do is sit and pine
For all the folks I left behind

I've got those Blueridge Mountain blues
And I stand right here and say
My grip is packed to travel
And Iím scratching gravel
To that Blue Ridge far away.

I'm gonna stay right by my ma
I'm gonna do right by my pa
I'll hang around the cabin door
No work no worry anymore

Iíve got the Blueridge Mountain blues
Gonna see my old dog Tray
I'm gonna hunt the Ďpossum
Where the corn tops blossom
On the Blue Ridge far away.

I see a window with a light
I see two heads of snowy white
It seems I hear them both recite
Where is my wandering boy tonight ?

Iíve got the Blueridge Mountain blues
And I stand right here an say
Every day Iím counting,
Till I climb that mountain
On the Blue Ridge far away.

Blueridge Mountain blues - GUITARE [retour]
  Theme  G                                   D
E|-----|-----------------|-----------------|-----------------|-----------------|
B|-0---|-0-----------0---|-----------------|-----------------|-----------------|
G|-----|-----------------|-2---0-------0---|-2---------------|-------------2---|
D|-----|-----------------|---------4-------|-----------------|-----------------|
A|-----|-----------------|-----------------|-----------------|-----------------|
E|-----|-----------------|-----------------|-----------------|-----------------|
   |     |   |   |   |     |   |   |   |     |   |   |   |     |   |   |   |

  D                                   G
|-----------------|-----------------|-----------------|-----------------|
|-------------0---|-1---3-----------|-----------------|-------------0---|
|-2---------------|-----------------|-0---------------|-----------------|
|-----------------|---------4p2-0---|-----------------|-----------------|
|-----------------|-----------------|-----------------|-----------------|
|-----------------|-----------------|-----------------|-----------------|
  |   |   |   |     |   |   |_| |     |   |   |   |     |   |   |   |

  G                                   D
|-----------------|-----------------|-----------------|-----------------|
|-0-----------0---|-----------------|-----------------|-----------------|
|-----------------|-2---0-------0---|-2-------2-------|-------------2---|
|-----------------|---------4-------|-----------------|-----------------|
|-----------------|-----------------|-----------------|-----------------|
|-----------------|-----------------|-----------------|-----------------|
  |   |   |   |     |   |   |   |     |   |   |   |     |   |   |   |

  D                                   G                        Chorus
|-----------------|-----------------|-----------------|-----------------|
|-------------0---|-1---1---0-------|-----------------|-----------------|
|-2---------------|-------------2---|-0---------------|-----------------|
|-----------------|-----------------|-----------------|-----2---0-------|
|-----------------|-----------------|-----------------|-------------2-0-|
|-----------------|-----------------|-----------------|-----------------|
  |   |   |   |     |   |   |   |     |   |   |   |     |   |   |   |_|

  G                                   D
|-----------------|-----------------|---------------0-|-2-0---2-0---2/3-|
|-----------------|-1-0-------------|---------0-2/3---|-----3-----3-----|
|-------------0-2-|-----2-0---------|-------2---------|-----------------|
|-------0-2-4-----|---------4-0-4/2-|-0-2/4-----------|-----------------|
|---0-2-----------|-----------------|-----------------|-----------------|
|-3---------------|-----------------|-----------------|-----------------|
  |_| |_| |_| |_|   |_| |_| |_| |_|   |_| |_| |_| |_|   |_| |_| |_| |_|

  D                                   G
|-5---2-5-3/2-0-3-|-2-----2-0-------|-----------------|-----------------|
|-----------------|-----3-----3-1---|-----------------|-----------------|
|-----------------|---2-----------2-|-0---------------|---------0-0-0---|
|-----------------|-----------------|-----3-2-0-------|-0---0-0---------|
|-----------------|-----------------|-----------3-2-0-|---------2-2-2---|
|-----------------|-----------------|-----------------|-3---3-3---------|
  |   |_| |_| |_|   |_| |_| |_| |_|   |   |_| |_| |_|   |   |_| |_| |

  G                                   C
|-------------0---|-----------------|-----------------|-----------------|
|-2/--3-------0---|-0-------0-------|-----------------|-----------------|
|-3/--4-----------|-7-------0-------|-0-----------2---|-0---------------|
|-----------------|-----------------|-2-----------2---|-2-----------2-3-|
|-----------------|-----------------|-----------------|-----------------|
|-----------------|-----------------|-----------------|-----------------|
  |   |   |   |     |   |   |   |     |   |   |   |     |   |   |   |_|

  D                                   G
|-----------------|-----------------|-------------0-2-|-3-3-3---3-------|
|-------0-1-0---0-|-1-0-------------|---------0-3-----|---0-0---0-------|
|---0-2-------2---|-----2-0---------|-0---0-2---------|---0-0---0-------|
|-4---------------|---------4-0-2-4-|---4-------------|-----0---0-------|
|-----------------|-----------------|-----------------|-----2---2-------|
|-----------------|-----------------|-----------------|-----3---3-------|
  |_| |_| |_| |_|   |_| |_| |_| |_|   |_| |_| |_| |_|   |_| |   |   |

Fin |-------------0-2-|-3-3-3-3-3-------| |---------0-3-----|---0-0-0-0-------| |-0---0-2---------|---0-0-0-0-------| |---4-------------|---------0-------| |-----------------|---------2-------| |-----------------|---------3-------| |_| |_| |_| |_| |_| |_| | |

Blueridge Mountain blues - FIDDLE [retour]
Theme
         G                                   D
E|-----|-----------------|-----------------|-----------------|-----------------|
A|-1---|-2-----------2---|-0---------------|-0---------------|-------------0---|
D|-----|-----------------|-----5---4---5---|-----------------|-----------------|
G|-----|-----------------|-----------------|-----------------|-----------------|
   |     |   |   |   |     |   |   |   |     |   |   |   |     |   |   |   |

  D                                   G
|-----------------|-----------------|-----------------|-----------------|
|-0-------2-------|-3---3---2/--0---|-----------------|-------------2---|
|-----------------|-----------------|-5---------------|-----------------|
|-----------------|-----------------|-----------------|-----------------|
  |   |   |   |     |   |   |   |     |   |   |   |     |   |   |   |

  G                                   D
|-----------------|-----------------|-----------------|-----------------|
|-2-------2-------|-0---------------|-0---------------|-------------0---|
|-----------------|-----5---4---5---|-----------------|-----------------|
|-----------------|-----------------|-----------------|-----------------|
  |   |   |   |     |   |   |   |     |   |   |   |     |   |   |   |

  D                                   G
|-----------------|-----------------|-----------------|-----------------|
|-0-------2-------|-3---3---2/--0---|-----------------|-----2---3---4---|
|-----------------|-----------------|-5---------------|-----------------|
|-----------------|-----------------|-----------------|-----------------|
  |   |   |   |     |   |   |   |     |   |   |   |     |   |   |   |

  G                                   D
|---------0-------|-----------------|-----------------|-----------------|
|-5---------------|-5-------2-------|-0---------------|---------0---2---|
|-----------------|-----------------|-----------------|-----------------|
|-----------------|-----------------|-----------------|-----------------|
  |   |   |   |     |   |   |   |     |   |   |   |     |   |   |   |

  D                                   G
|-----------------|-----------------|-----------------|-----------------|
|-3-------5-------|-5-------0-------|-2---------------|-----2---3---4---|
|-----------------|-----------------|-----------------|-----------------|
|-----------------|-----------------|-----------------|-----------------|
  |   |   |   |     |   |   |   |     |   |   |   |     |   |   |   |

  G                                   C
|-------------0---|-----------------|-----------------|-----------------|
|-5---------------|-5---2---0-------|-0-------2-------|-0-------0---2---|
|-----------------|-------------5---|-----------------|-----5-----------|
|-----------------|-----------------|-----------------|-----------------|
  |   |   |   |     |   |   |   |     |   |   |   |     |   |   |   |

  D                                   G
|-----------------|-----------------|-----------------|-----------------|
|-3-------5-------|-2-------0-------|-----------------|-----------------|
|-----------------|-----------------|-5---------------|-----------------|
|-----------------|-----------------|-----------------|-----------------|
  |   |   |   |     |   |   |   |     |   |   |   |     |   |   |   |

Licks D G |---5-7-5-9-7-5---|-----------------| |-------------0/3-|-3---------------| |---------------9-|-8-5-------------| |-----1/2---5-----|-----------------| |-----------------|-----9-7-3/4---0-| |-5---------------|-----------------| |-----------------|-----------------| |-----------------|-----------------| |_| |_| |_| |_| |_| |_| |_| |_| | |_| |_| |_| | D |-2-------5-------|-2---------------| |-5-------9-------|-5---------------| |-----------------|-----------------| |-----------------|-----------------| | | | | | | | | G |-----------------|-----------------|-----------------|-----------------| |-2-------5-------|-2---------------|-2-----------2---|-2-5-5-----------| |-5-------9-------|-5---------------|-5-----------4---|-3-3-3-----------| |-----------------|-----------------|-----------------|-----------------| | | | | | | | | | | | | |_| | | | C |-----------------|-----------------| |-3---------------|-1---------------| |-2---------------|-2---------------| |-----------------|-----------------| | | | | | | | | G D |-----3-----5-----|-6-----5-----3---| |-----------------|-----------------| |-2-2-2-2-2-2-2-2-|-2-2-2-2-2-2-2-2-| |-----0-----2-----|-3-----2-----0---| |-0-0---0-0---0-0-|---0-0---0-0---0-| |-4-4-4-4-4-4-4-4-|-4-4-4-4-4-4-4-4-| |-----------------|-----------------| |-7-7---7-7---7-7-|---7-7---7-7---7-| |_| |_| |_| |_| |_| |_| |_| |_| |_| |_| |_| |_| |_| |_| |_| |_|

Blueridge Mountain blues - BANJO [retour]
Chorus

         G                                   D
D|-----|---------0-----0-|-----------------|-----0---0-----0-|-------0-------0-|
B|-0---|-0-----0-----0---|-----------------|---1-------1-----|---1-------1-----|
G|-----|-----------------|-2---0-------0---|-2-----------2---|-------------2---|
D|-----|-----------------|---------4-------|-----------------|-0-------0-------|
G|-----|-----0-----0-----|-----------------|-------0---------|-----0-----------|
   |     |   |_| |_| |_|   |   |   |   |     |_| |_| |_| |_|   |_| |_| |_| |_|

                                      G
|---------0-----0-|---------0-----0-|---0-----0-----0-|-----0-----------|
|-------------0---|-0/1---0---------|-----------------|-------------0---|
|-2-----2---------|-------------2---|-0-----2---0-----|-0-------0-------|
|-----------------|-----------------|-------------2---|-----------------|
|-----0-----0-----|-----0-----0-----|-----0-----------|-----0-----------|
  |   |_| |_| |_|   |_| |_| |_| |_|   |_| |_| |_| |_|   |   |   |   |

                                      D
|---------0-----0-|-----------------|-----0---0-----0-|-------0---------|
|-0-----0-----0---|-----------------|---1-------1-----|---1-------1-----|
|-----------------|-2---0-------0---|-2-----------2---|-------------2---|
|-----------------|---------4-------|-----------------|-0-------0-------|
|-----0-----0-----|-----------------|-------0---------|-----0-----------|
  |   |_| |_| |_|   |   |   |   |     |_| |_| |_| |_|   |_| |_| |_| |

                                      G
|---------0-----0-|---0-----0-----0-|---0-----0-----0-|-----0---0---0---|
|-------------0---|-1-----0---------|-----------------|-----0---1---2---|
|-2-----2---------|-------------2---|-0-----2---0-----|-0---------------|
|-----------------|-----------------|-------------2---|-----------------|
|-----0-----0-----|-----0-----0-----|-----0-----------|-----0---0---0---|
  |   |_| |_| |_|   |_| |_| |_| |_|   |_| |_| |_| |_|   |   |   |   |

  G                                   D
|---0-----0-----0-|---0-----0-----0-|-----0---0-----0-|-------0---------|
|-2-----3-----0---|-2-----3-----0---|---1-------1-----|---1---------0---|
|-----------------|-----------------|-2-----------2---|---------2-------|
|-----------------|-----------------|-----------------|-0---------------|
|-----0-----0-----|-----0-----0-----|-------0---------|-----0-----------|
  |_| |_| |_| |_|   |_| |_| |_| |_|   |_| |_| |_| |_|   |_| |_| |   |

                                      G
|---------0-----0-|---0-----2-----0-|---------0-----0-|-----0---0---0---|
|-1-----1-----1---|-3-----3-----3---|-0---------------|-----0---1---2---|
|-----------------|-----------------|-------2---0-----|-0---------------|
|-----------------|-----------------|-------------2-0-|-----------------|
|-----0-----0-----|-----0-----0-----|-----0-----------|-----0---0---0---|
  |   |_| |_| |_|   |_| |_| |_| |_|   |   |_| |_| |_|   |   |   |   |

                                      C
|-0-----0-----2---|-0---------------|-------2-------2-|-------2---------|
|-----2-----3-----|-----0-----------|---1-------1-----|---1---------0---|
|-----------------|---------2---0---|-2-------3-------|-2---0---2-------|
|-----------------|-----------------|-----------------|-----------------|
|---------0-----0-|-----------------|-----0-------0---|-----------------|
  |   |_| |_| |_|   |   |   |   |     |_| |_| |_| |_|   |_| |_| |   |

  D                                   G
|---0-----0-----0-|-----0---0-----0-|---0-----0-----0-|-----------------|
|-2-----3-----3---|---0-------0-----|-----------------|-----------------|
|-----------------|-2-----------2---|-0-----2/3-0-----|-0---------------|
|-----------------|-----------------|-------------2---|-----------------|
|-----0-----0-----|-------0---------|-----0-----------|-----------------|
  |_| |_| |_| |_|   |_| |_| |_| |_|   |_| |_| |_| |_|   |   |   |   |

Licks D G |-----0---0-----0-|-----0---0-----0-| |-----------0-----|-----7---9---7---| |-------------2s3-|---3-------0-----| |-----8---------0-|---9-----------9-| |-----------------|-------------3s2-| |-0-------9-------|-----------------| |-0---------------|-----------------| |-------------8---|-----------------| |-----------------|-0-----0---------| |-------0---------|-0-----8---8-----| | | | |_| |_| |_| |_| |_| | |_| |_| |_| |_| |_| |_| |_| G |-----------------| |-----3---2---1---| |-0---4---3---2---| |-----------------| |-----------------| | | | |

Blueridge Mountain blues - BASSE [retour]
                     G                                    D
G|-----------------||-----------------|-----------------|-----------------|
D|-----------------||-----------------|-----------------|-0---------------|
A|-----------------||---------2-------|-----2---3---4---|---------0-------|
E|-----0---1---2---||-3---------------|-3---------------|-----------------|
   |   |   |   |      |   |   |   |     |   |   |    |    |   |   |    |

                                                        G
|-----------------|-----------------|-----------------|-----------------|
|-0---------------|-0---------------|-0---------------|-----------------|
|---------0---3---|---------0-------|-----3---2---0---|---------2-------|
|-----------------|-----------------|-----------------|-3---------------|
  |   |   |   |     |   |   |   |     |   |   |   |     |   |   |   |

                                                        D
|-----------------|-----------------|-----------------|-----------------|
|-----------------|-----------------|-----------------|-0---------------|
|-----------------|---------2-------|-----2---3---4---|---------0-------|
|-3---0---1---2---|-3---------------|-3---------------|-----------------|
  |   |   |   |     |   |   |   |     |   |   |   |     |   |   |   |

                                                       G
|-----------------|-----------------|-----------------|-----------------|
|-0---------------|-0---------------|-0---------------|-----------------|
|---------0---3---|---------0-------|-----3---2---0---|---------2-------|
|-----------------|-----------------|-----------------|-3---------------|
  |   |   |   |     |   |   |   |     |   |   |   |     |   |   |   |

                   G                                    D
|-----------------|-----------------|-----------------|-----------------|
|-----------------|-----------------|-----------------|-0---------------|
|-----------------|---------2-------|---------2---4---|---------0-------|
|-3---0---1---2---|-3---------------|-3---------------|-----------------|
  |   |   |   |     |   |   |   |     |   |   |   |     |   |   |   |

                                                        G
|-----------------|-----------------|-----------------|-----------------|
|-0---------------|-0---------------|-0---------------|-----------------|
|---------0---3---|---------0-------|-----3---2---0---|---------2-------|
|-----------------|-----------------|-----------------|-3---------------|
  |   |   |   |     |   |   |   |     |   |   |   |     |   |   |   |

                                                        C
|-----------------|-----------------|-----------------|-----------------|
|-----------------|-----------------|-----------------|-----------------|
|-----------------|---------2-------|---------0---2---|-3---------------|
|-3---0---1---2---|-3---------------|-3---------------|---------3-------|
  |   |   |   |     |   |   |   |     |   |   |   |     |   |   |   |

                    D                                   G
|-----------------|-----------------|-----------------|-----------------|
|-----------------|-0---------------|-0---------------|-----------------|
|-3---2---3---4---|---------0-------|---------2---0---|---------2-------|
|-----------------|-----------------|-----------------|-3---------------|
  |   |   |   |     |   |   |   |     |   |   |   |     |   |   |   |


|-----------------|
|-----------------|
|-----------------|
|-3---------------|
  |   |   |   |