The Blues Come Around

H.Williams

GUITARE VIOLON BASSE [oo]

Once I was happy as I could be
But I let a gal make a fool of me
And ever since she let me down
The blues come around when the sun goes down
Oh the blues come around
Oh the blues come around
Lord the blues come around
Every evenin' when the sun goes down

As the sun is in the sky
Those doggone blues never make me cry
But ever since she left this town
The blues come around when the sun goes down
Oh the blues come around...

I've built my castle very high
And then she went and said goodbye
Ever since she tored 'em down
The blues come around when the sun goes down
Oh the blues come around...

Once she called me all her own
But now she's gone and I'm alone
And every evenin' I'm sorrow bound
Cause the blues come around when the sun goes down
Oh the blues come around...

Oh the blues come around...

The Blues Come Around - GUITARE [retour]
Intro

              G                                       C
E|----------|------------------8-|------------------|-----------------|
B|---8-10-8-|-11--11s10-8-10-8---|--------8-------8-|-------8-------8-|
G|----------|--------------------|----------10--9---|-----9---10--9---|
D|----------|--------------------|---10-------------|-10--------------|
A|----------|--------------------|------------------|-----------------|
E|----------|--------------------|------------------|-----------------|
   |_| |__|   |   |__|  |_|  |_|   |_|  |_| |   |_|   |   |_| |   |_|

                     C
|-8----------------|-----------------|
|---11b---8-10-8---|-----------------|
|----------------8-s-9---------------|
|------------------|-----------------|
|------------------|-----------------|
|------------------|-----------------|
  |_| |   |_|  |_|   |   |   |   |

Chorus 1

           C
|-----12-|-15--13--12-10-8----|-10-8-------10---------|--------------8-12-|
|---13---|-----------------12-|------12-10----12-10-8-|---------8-10------|
|-12-----|--------------------|-----------------------|-10--9-------------|
|--------|--------------------|-----------------------|-------------------|
|--------|--------------------|-----------------------|-------------------|
|--------|--------------------|-----------------------|-------------------|
  |_|_|    |   |   |__|  |_|    |__| |__|  |__|  |__|   |   |   |_|  |_|

                                                                   G
|-10--8---7-------|-7-8---7-----7-8-|-8s7----------------|------------------|
|-------------10--|---------10------|-----10-8----8------|---8--------------|
|-----------------|-----------------|----------10---10-8-s-9---9---7--------|
|-----------------|-----------------|--------------------|-----------10-9---|
|-----------------|-----------------|--------------------|------------------|
|-----------------|-----------------|--------------------|------------------|
  |   |   |   |     |_| |_| |   |_|   |_| |__| |__| |__|   |_| |   |_|  |

 C
|-----------------|
|-----------8-----|
|---------9-------|
|-10--10----------|
|-----------------|
|-----------------|
  |   |   |_| |

Chorus 2

             C
|--------8-|-12--8----8----8----|-8-----------------|-------------------|
|---8-10---|-------10---10---10-|---10-8------8-----|---8---------------|
|----------|--------------------|----------10---9-8-s-9---9-------------|
|----------|--------------------|-------------------|-------10-7--------|
|----------|--------------------|-------------------|------------10-----|
|----------|--------------------|-------------------|-------------------|
  |_| |__|   |   |_|  |_|  |_|    |_|  |   |__| |_|   |_| |_|  |_|  |


|-----------------|-----8-------------|-----------------8-|---11s12-8----------|
|-----------------|---8---10s8--------|---------------8---|-----------10-8-----|
|-----------------|/9----------9------|-------------------|----------------9---|
|-7---9---10------|--------------10-7-|---------7-10------|--------------------|
|-----------------|-------------------|-10-7-10-----------|--------------------|
|-----------------|-------------------|-------------------|--------------------|
  |   |   |   |     |_| |_|  |_| |__|   |__| |__| |   |_|   |_|  |__| |__| |

  G        C
|------7-8---------|
|-8-10-------------|
|------------------|
|------------------|
|------------------|
|------------------|
  |_|  |_| |   |

Licks

  C                                 (theme mesure 4  6)
|-----------------|-----------------|---8-------------|
|-----------------|-----------------|-----------10----|
|-8s7-------------|-9---------------|-----------------|
|-----9-10--------|---------7-------|-----------------|
|-----------------|-------------10--|-----------------|
|-----------------|-----------------|-----------------|
  |_| |_| |   |     |   |   |   |     |_| |   |_| |

  C                                 (theme mesure 7  8)
|-------------------------|-----------------|
|-----------------7---6---|-5---------------|
|-----------------8---7---|-5---------------|
|-7---7s5-7---5-----------|-----5-----------|
|-------------------------|-----------------|
|-------------------------|-----------------|
  |   |_| |   |   |   |     |   |   |   |

  F                               (theme mesure 10  11)
|---------6---7---|-8---------------|
|-----10--8---9---|-10--------------|
|-----10----------|-------------10--|
|-----------------|-----------------|
|-----------------|-----------------|
|-----------------|-----------------|
  |   |   |   |     |   |   |   |

  C                             G (theme mesure 12  13)
|---------------8-------------|-----------------|
|----------8-10---8-10--------|-----------------|
|------7-9-------------8-9----|-----------------|
|---10---------------------10-|-7---------------|
|-----------------------------|-----10----------|
|-----------------------------|-----------------|
  |_|  |_| |_|  |_| |__| |_|    |   |   |   |

Fin

  C
|-----------------|-8---11s12---------|
|---------8---10--|------9s10---------|
|---9-------------|-----11s12---------|
|---10------------|------9s10---------|
|-----------------|-------------------|
|-----------------|-------------------|
  |_| |_| |   |     |    |_|  |   |

The Blues Come Around - VIOLON [retour]
Theme

  C
|-----------------|-----------------|------------------|-----------------|
|-3-3---3-3-3-3---|-----------------|------------------|-----------------|
|-----------------|-7S5-2-5-------2-|-2-0-2-0----------|-----------------|
|-----------------|-----------------|-----------5---5--|-9s7-5---5-----5-|
  |_| |_| |_| |     |_| |_| |   |_|   |_| |_| |_| |_|    |_| |   |   |_|


|-----------------|-----------------|-------------------------|
|-3-3-----3---3---|-----------------|-------------------------|
|-----------------|-7s5-2-5-------5-|---------------------2s0-|
|-----------------|-----------------|-9s7-5-5-2s0-0-0-5-------|
  |_| |   |   |     |_| |_| |   |_|   |_| |_| |_| |_| |   |_|

                                      F
|-----------------|-----------------|-----------------|-----------------|
|-----------------|-----------------|-----------------|---3---3-3---0---|
|-----------------|---------0---2-2-|-3---------------|---------------1-|
|-5---------------|-----5-5---------|-----------------|-----------------|
  |   |   |   |     |   |_| |   |_|   |   |   |   |     |_| |_| |   |_|                           -

 C                          G                                   C
|-------------------------|-----------------|-----------------|-----
|---------------------2---|-2-----------0---|-3-3-1-0---------|-----
|-1s2-------------------5-|-----5-5-5-----5-|---------5s3-2---|-----
|-------------------------|-----------------|-----------------|-5---
  |_| |   |   |   |   |_|   |   |_| |   |_|   |_| |_| |_| |     |

Fin

                    F                                   C
|-----------------|-----------------|-----------------|-----------------|
|-----------------|-----------------|---3---3-3---0---|-----------------|
|-----0---0---2-2-|-3---------------|---------------1-|-1s2-------------|
|-------5---------|-----------------|-----------------|-----------------|
  |   |_| |   |_|   |   |   |   |     |_| |_| |   |_|   |_| |   |   |

                    G                                   C
|-----------------|-----------------|-----------------|-----------------|
|-----------0-----|-2s0---------0---|-3-3-------------|-----------------|
|---------------5-|-----5-5-5-----5-|-----5-2-5/3-2---|-----------------|
|-----------------|-----------------|-----------------|-5---------------|
  |   |   |_| |_|   |_| |_| |   |_|   |_| |_| |_| |     |   |   |   |

The Blues Come Around - BASSE [retour]
Riffs

  G                                 C
|-----------------|               |-----------------|
|-----------------|               |-----2---3---5---|
|-----2---3---5---|               |-3---------------|
|-3---------------|               |-----------------|
  |   |   |   |                     |   |   |   |

  C                                 F
|-------------------------|       |-----2---3---5---|
|-----2---3---5---3---2---|       |-3---------------|
|-3-----------------------|       |-----------------|
|-------------------------|       |-----------------|
  |   |   |   |   |   |             |   |   |   |

  C       G                         G       C
|-----------------|               |-----------------|
|-----2-------0---|               |-----0-------2---|
|-3-------2-------|               |-2---------------|
|-----------------|               |---------3-------|
  |   |   |   |                     |   |   |   |